Level With Yourself

David Bazan related tabs and lyrics.

Moderator: Mattmon

User avatar
ansible
Moderator
Posts: 1830
Joined: Mon Sep 10, 2007 9:10 am

Level With Yourself

Postby ansible » Sun Apr 07, 2013 10:00 pm

Got lucky. Searched randomly again for ANY tab to this song and found one on reddit, so many thanks to crwcomposer from reddit. I am essentially reposting what he had, the only new observation I had was that this is probably played in drop D.

Level With Yourself
David Bazan

Code: Select all

Drop D

 |   |   |   |    |   |   |   |
|----------------|----------------|
|----------------|----------------|
|----------------|----------------|
|----------------|--------3-------|
|3-----------5---|----------------|
|----------------|----------------|
The verse goes like this (repeated a few times):
 |   |   |   |    |   |   |   |
|----------------|----------------|
|----------------|----------------|
|----------------|----------------|
|1012--12--1212--|--1210--9-9-----|
|0-0---0---0-9---|------------12--|
|----------------|----------------|
And the verse ends like this:
 |   |   |   |    |   |   |   |
|----------------|----------------|
|----------------|----------------|
|----------------|----------------|
|0-0-0-0-0-0-0-0-|0-0-0-0-0-0-0-0-|
|1010101010101010|10109-9-7-7-5-5-|
|----------------|----------------|


I have a couple other additions I made to the missing sections but I'll have to post them later. This is a pretty solid tab for the main riff though.
when I was a boy
everything was right

Return to “Tablature and Lyrics”

Who is online

Users browsing this forum: No registered users and 1 guest

cron